ISO-10303-21;
HEADER;
FILE_DESCRIPTION (( 'STEP AP203' ),
    '1' );
FILE_NAME ('Q-AZHWP-25.4-1030-M.STEP',
    '2020-12-22T09:09:23',
    ( '' ),
    ( '' ),
    'SwSTEP 2.0',
    'SolidWorks 2020',
    '' );
FILE_SCHEMA (( 'CONFIG_CONTROL_DESIGN' ));
ENDSEC;

DATA;
#1 = APPROVAL_STATUS ( 'not_yet_approved' ) ;
#2 = DATE_TIME_ROLE ( 'classification_date' ) ;
#3 = UNCERTAINTY_MEASURE_WITH_UNIT (LENGTH_MEASURE( 1.000000000000000082E-05 ), #96, 'distance_accuracy_value', 'NONE');
#4 = VERTEX_POINT ( 'NONE', #118 ) ;
#5 = FACE_OUTER_BOUND ( 'NONE', #43, .T. ) ;
#6 = DIRECTION ( 'NONE',  ( -1.000000000000000000, -0.000000000000000000, -0.000000000000000000 ) ) ;
#7 = SECURITY_CLASSIFICATION ( '', '', #146 ) ;
#8 = CIRCLE ( 'NONE', #171, 15.00000000000000000 ) ;
#9 = CARTESIAN_POINT ( 'NONE',  ( 3.000000000000000888, 12.69999999999999929, 0.000000000000000000 ) ) ;
#10 = CIRCLE ( 'NONE', #120, 15.00000000000000000 ) ;
#11 = PERSON_AND_ORGANIZATION ( #156, #102 ) ;
#12 = COORDINATED_UNIVERSAL_TIME_OFFSET ( 8, 0, .AHEAD. ) ;
#13 = PERSON_AND_ORGANIZATION_ROLE ( 'creator' ) ;
#14 = ORIENTED_EDGE ( 'NONE', *, *, #18, .F. ) ;
#15 = PERSON_AND_ORGANIZATION ( #156, #102 ) ;
#16 = CARTESIAN_POINT ( 'NONE',  ( -3.000000000000000888, 12.69999999999999929, 0.000000000000000000 ) ) ;
#17 = EDGE_CURVE ( 'NONE', #4, #138, #84, .T. ) ;
#18 = EDGE_CURVE ( 'NONE', #138, #78, #8, .T. ) ;
#19 = DIRECTION ( 'NONE',  ( 0.000000000000000000, 0.000000000000000000, 1.000000000000000000 ) ) ;
#20 = APPROVAL_DATE_TIME ( #162, #160 ) ;
#21 = ORIENTED_EDGE ( 'NONE', *, *, #29, .F. ) ;
#22 = SHAPE_DEFINITION_REPRESENTATION ( #37, #67 ) ;
#23 = ORIENTED_EDGE ( 'NONE', *, *, #17, .T. ) ;
#24 = APPROVAL_PERSON_ORGANIZATION ( #11, #105, #136 ) ;
#25 = APPROVAL_PERSON_ORGANIZATION ( #58, #160, #128 ) ;
#26 = PERSON_AND_ORGANIZATION ( #156, #102 ) ;
#27 = COORDINATED_UNIVERSAL_TIME_OFFSET ( 8, 0, .AHEAD. ) ;
#28 = DESIGN_CONTEXT ( 'detailed design', #114, 'design' ) ;
#29 = EDGE_CURVE ( 'NONE', #78, #138, #72, .T. ) ;
#30 = DIRECTION ( 'NONE',  ( 0.000000000000000000, 0.000000000000000000, 1.000000000000000000 ) ) ;
#31 = APPROVAL_PERSON_ORGANIZATION ( #26, #69, #62 ) ;
#32 = AXIS2_PLACEMENT_3D ( 'NONE', #9, #39, #57 ) ;
#33 = DIRECTION ( 'NONE',  ( -1.000000000000000000, -0.000000000000000000, -0.000000000000000000 ) ) ;
#34 = DIRECTION ( 'NONE',  ( 1.000000000000000000, 0.000000000000000000, 0.000000000000000000 ) ) ;
#35 = CC_DESIGN_PERSON_AND_ORGANIZATION_ASSIGNMENT ( #91, #139, ( #44 ) ) ;
#36 = CARTESIAN_POINT ( 'NONE',  ( -1.614212418857619014, 0.000000000000000000, 15.00000000000000000 ) ) ;
#37 = PRODUCT_DEFINITION_SHAPE ( 'NONE', 'NONE',  #97 ) ;
#38 = DIRECTION ( 'NONE',  ( -1.000000000000000000, -0.000000000000000000, -0.000000000000000000 ) ) ;
#39 = DIRECTION ( 'NONE',  ( -1.000000000000000000, 0.000000000000000000, -0.000000000000000000 ) ) ;
#40 = CALENDAR_DATE ( 2020, 22, 12 ) ;
#41 = CALENDAR_DATE ( 2020, 22, 12 ) ;
#42 = COORDINATED_UNIVERSAL_TIME_OFFSET ( 8, 0, .AHEAD. ) ;
#43 = EDGE_LOOP ( 'NONE', ( #159, #150, #174, #14 ) ) ;
#44 = PRODUCT_DEFINITION_FORMATION_WITH_SPECIFIED_SOURCE ( 'ANY', '', #151, .NOT_KNOWN. ) ;
#45 = LOCAL_TIME ( 17, 9, 23.00000000000000000, #42 ) ;
#46 = APPLICATION_CONTEXT ( 'configuration controlled 3d designs of mechanical parts and assemblies' ) ;
#47 = CC_DESIGN_PERSON_AND_ORGANIZATION_ASSIGNMENT ( #175, #13, ( #97 ) ) ;
#48 = DIRECTION ( 'NONE',  ( 0.000000000000000000, 0.000000000000000000, 1.000000000000000000 ) ) ;
#49 = PLANE ( 'NONE',  #167 ) ;
#50 = DIRECTION ( 'NONE',  ( 1.000000000000000000, 0.000000000000000000, 0.000000000000000000 ) ) ;
#51 = CC_DESIGN_PERSON_AND_ORGANIZATION_ASSIGNMENT ( #88, #65, ( #44 ) ) ;
#52 = CLOSED_SHELL ( 'NONE', ( #127, #119, #109, #64 ) ) ;
#53 = DIRECTION ( 'NONE',  ( -1.000000000000000000, -0.000000000000000000, -0.000000000000000000 ) ) ;
#54 = DIRECTION ( 'NONE',  ( -1.000000000000000000, -0.000000000000000000, -0.000000000000000000 ) ) ;
#55 = LOCAL_TIME ( 17, 9, 23.00000000000000000, #90 ) ;
#56 = APPLICATION_PROTOCOL_DEFINITION ( 'international standard', 'config_control_design', 1994, #46 ) ;
#57 = DIRECTION ( 'NONE',  ( -0.000000000000000000, 0.000000000000000000, 1.000000000000000000 ) ) ;
#58 = PERSON_AND_ORGANIZATION ( #156, #102 ) ;
#59 = EDGE_LOOP ( 'NONE', ( #92, #23, #21, #137 ) ) ;
#60 = COORDINATED_UNIVERSAL_TIME_OFFSET ( 8, 0, .AHEAD. ) ;
#61 = CC_DESIGN_DATE_AND_TIME_ASSIGNMENT ( #116, #112, ( #97 ) ) ;
#62 = APPROVAL_ROLE ( '' ) ;
#63 = CALENDAR_DATE ( 2020, 22, 12 ) ;
#64 = ADVANCED_FACE ( 'NONE', ( #164 ), #49, .F. ) ;
#65 = PERSON_AND_ORGANIZATION_ROLE ( 'creator' ) ;
#66 = PRODUCT_RELATED_PRODUCT_CATEGORY ( 'detail', '', ( #151 ) ) ;
#67 = ADVANCED_BREP_SHAPE_REPRESENTATION ( 'Q-AZHWP-25.4-1030-M', ( #122, #172 ), #115 ) ;
#68 = ORIENTED_EDGE ( 'NONE', *, *, #70, .F. ) ;
#69 = APPROVAL ( #89, 'UNSPECIFIED' ) ;
#70 = EDGE_CURVE ( 'NONE', #113, #4, #154, .T. ) ;
#71 = LOCAL_TIME ( 17, 9, 23.00000000000000000, #12 ) ;
#72 = CIRCLE ( 'NONE', #85, 15.00000000000000000 ) ;
#73 = DIRECTION ( 'NONE',  ( 0.000000000000000000, 0.000000000000000000, 1.000000000000000000 ) ) ;
#74 = CARTESIAN_POINT ( 'NONE',  ( -1.614212418857619014, 0.000000000000000000, 0.000000000000000000 ) ) ;
#75 = CARTESIAN_POINT ( 'NONE',  ( 3.000000000000000000, 0.000000000000000000, 0.000000000000000000 ) ) ;
#76 = CYLINDRICAL_SURFACE ( 'NONE', #100, 15.00000000000000000 ) ;
#77 = APPLICATION_PROTOCOL_DEFINITION ( 'international standard', 'config_control_design', 1994, #114 ) ;
#78 = VERTEX_POINT ( 'NONE', #104 ) ;
#79 = PERSON_AND_ORGANIZATION_ROLE ( 'classification_officer' ) ;
#80 = CC_DESIGN_APPROVAL ( #160, ( #44 ) ) ;
#81 = CARTESIAN_POINT ( 'NONE',  ( 3.000000000000000000, 0.000000000000000000, 0.000000000000000000 ) ) ;
#82 = CARTESIAN_POINT ( 'NONE',  ( -1.614212418857619014, 1.836970198721029589E-15, -15.00000000000000000 ) ) ;
#83 = LOCAL_TIME ( 17, 9, 23.00000000000000000, #60 ) ;
#84 = LINE ( 'NONE', #82, #166 ) ;
#85 = AXIS2_PLACEMENT_3D ( 'NONE', #163, #140, #30 ) ;
#86 = FACE_OUTER_BOUND ( 'NONE', #126, .T. ) ;
#87 =( NAMED_UNIT ( * ) PLANE_ANGLE_UNIT ( ) SI_UNIT ( $, .RADIAN. ) );
#88 = PERSON_AND_ORGANIZATION ( #156, #102 ) ;
#89 = APPROVAL_STATUS ( 'not_yet_approved' ) ;
#90 = COORDINATED_UNIVERSAL_TIME_OFFSET ( 8, 0, .AHEAD. ) ;
#91 = PERSON_AND_ORGANIZATION ( #156, #102 ) ;
#92 = ORIENTED_EDGE ( 'NONE', *, *, #70, .T. ) ;
#93 = DIRECTION ( 'NONE',  ( 0.000000000000000000, 0.000000000000000000, -1.000000000000000000 ) ) ;
#94 = DIRECTION ( 'NONE',  ( 0.000000000000000000, 0.000000000000000000, 1.000000000000000000 ) ) ;
#95 = VECTOR ( 'NONE', #38, 1000.000000000000000 ) ;
#96 =( LENGTH_UNIT ( ) NAMED_UNIT ( * ) SI_UNIT ( .MILLI., .METRE. ) );
#97 = PRODUCT_DEFINITION ( 'UNKNOWN', '', #44, #28 ) ;
#98 = FACE_OUTER_BOUND ( 'NONE', #59, .T. ) ;
#99 = APPROVAL_STATUS ( 'not_yet_approved' ) ;
#100 = AXIS2_PLACEMENT_3D ( 'NONE', #74, #54, #152 ) ;
#101 = EDGE_LOOP ( 'NONE', ( #107, #142 ) ) ;
#102 = ORGANIZATION ( 'UNSPECIFIED', 'UNSPECIFIED', '' ) ;
#103 = DATE_AND_TIME ( #41, #55 ) ;
#104 = CARTESIAN_POINT ( 'NONE',  ( -3.000000000000000000, 0.000000000000000000, 15.00000000000000000 ) ) ;
#105 = APPROVAL ( #99, 'UNSPECIFIED' ) ;
#106 = CARTESIAN_POINT ( 'NONE',  ( -3.000000000000000000, 0.000000000000000000, 0.000000000000000000 ) ) ;
#107 = ORIENTED_EDGE ( 'NONE', *, *, #29, .T. ) ;
#108 = CARTESIAN_POINT ( 'NONE',  ( -3.000000000000000000, 1.836970198721029589E-15, -15.00000000000000000 ) ) ;
#109 = ADVANCED_FACE ( 'NONE', ( #5 ), #76, .T. ) ;
#110 = DATE_AND_TIME ( #130, #83 ) ;
#111 = APPROVAL_DATE_TIME ( #103, #69 ) ;
#112 = DATE_TIME_ROLE ( 'creation_date' ) ;
#113 = VERTEX_POINT ( 'NONE', #123 ) ;
#114 = APPLICATION_CONTEXT ( 'configuration controlled 3d designs of mechanical parts and assemblies' ) ;
#115 =( GEOMETRIC_REPRESENTATION_CONTEXT ( 3 ) GLOBAL_UNCERTAINTY_ASSIGNED_CONTEXT ( ( #3 ) ) GLOBAL_UNIT_ASSIGNED_CONTEXT ( ( #96, #87, #157 ) ) REPRESENTATION_CONTEXT ( 'NONE', 'WORKASPACE' ) );
#116 = DATE_AND_TIME ( #129, #45 ) ;
#117 = DIRECTION ( 'NONE',  ( -1.000000000000000000, -0.000000000000000000, -0.000000000000000000 ) ) ;
#118 = CARTESIAN_POINT ( 'NONE',  ( 3.000000000000000000, 1.836970198721029589E-15, -15.00000000000000000 ) ) ;
#119 = ADVANCED_FACE ( 'NONE', ( #86 ), #173, .F. ) ;
#120 = AXIS2_PLACEMENT_3D ( 'NONE', #75, #145, #19 ) ;
#121 = LOCAL_TIME ( 17, 9, 23.00000000000000000, #27 ) ;
#122 = MANIFOLD_SOLID_BREP ( 'Ðý×', #52 ) ;
#123 = CARTESIAN_POINT ( 'NONE',  ( 3.000000000000000000, 0.000000000000000000, 15.00000000000000000 ) ) ;
#124 = CC_DESIGN_PERSON_AND_ORGANIZATION_ASSIGNMENT ( #15, #79, ( #7 ) ) ;
#125 = PERSON_AND_ORGANIZATION_ROLE ( 'design_owner' ) ;
#126 = EDGE_LOOP ( 'NONE', ( #68, #149 ) ) ;
#127 = ADVANCED_FACE ( 'NONE', ( #98 ), #168, .T. ) ;
#128 = APPROVAL_ROLE ( '' ) ;
#129 = CALENDAR_DATE ( 2020, 22, 12 ) ;
#130 = CALENDAR_DATE ( 2020, 22, 12 ) ;
#131 = EDGE_CURVE ( 'NONE', #4, #113, #10, .T. ) ;
#132 = MECHANICAL_CONTEXT ( 'NONE', #46, 'mechanical' ) ;
#133 = PERSON_AND_ORGANIZATION ( #156, #102 ) ;
#134 = DIRECTION ( 'NONE',  ( 0.000000000000000000, 0.000000000000000000, 1.000000000000000000 ) ) ;
#135 = CC_DESIGN_APPROVAL ( #69, ( #97 ) ) ;
#136 = APPROVAL_ROLE ( '' ) ;
#137 = ORIENTED_EDGE ( 'NONE', *, *, #165, .F. ) ;
#138 = VERTEX_POINT ( 'NONE', #108 ) ;
#139 = PERSON_AND_ORGANIZATION_ROLE ( 'design_supplier' ) ;
#140 = DIRECTION ( 'NONE',  ( -1.000000000000000000, -0.000000000000000000, -0.000000000000000000 ) ) ;
#141 = AXIS2_PLACEMENT_3D ( 'NONE', #155, #53, #73 ) ;
#142 = ORIENTED_EDGE ( 'NONE', *, *, #18, .T. ) ;
#143 = CARTESIAN_POINT ( 'NONE',  ( 0.000000000000000000, 0.000000000000000000, 0.000000000000000000 ) ) ;
#144 = CC_DESIGN_DATE_AND_TIME_ASSIGNMENT ( #110, #2, ( #7 ) ) ;
#145 = DIRECTION ( 'NONE',  ( -1.000000000000000000, -0.000000000000000000, -0.000000000000000000 ) ) ;
#146 = SECURITY_CLASSIFICATION_LEVEL ( 'unclassified' ) ;
#147 = APPROVAL_DATE_TIME ( #161, #105 ) ;
#148 = AXIS2_PLACEMENT_3D ( 'NONE', #81, #117, #48 ) ;
#149 = ORIENTED_EDGE ( 'NONE', *, *, #131, .F. ) ;
#150 = ORIENTED_EDGE ( 'NONE', *, *, #131, .T. ) ;
#151 = PRODUCT ( 'Q-AZHWP-25.4-1030-M', 'Q-AZHWP-25.4-1030-M', '', ( #132 ) ) ;
#152 = DIRECTION ( 'NONE',  ( 0.000000000000000000, 0.000000000000000000, 1.000000000000000000 ) ) ;
#153 = LINE ( 'NONE', #36, #95 ) ;
#154 = CIRCLE ( 'NONE', #148, 15.00000000000000000 ) ;
#155 = CARTESIAN_POINT ( 'NONE',  ( -1.614212418857619014, 0.000000000000000000, 0.000000000000000000 ) ) ;
#156 = PERSON ( 'UNSPECIFIED', 'UNSPECIFIED', 'UNSPECIFIED', ('UNSPECIFIED'), ('UNSPECIFIED'), ('UNSPECIFIED') ) ;
#157 =( NAMED_UNIT ( * ) SI_UNIT ( $, .STERADIAN. ) SOLID_ANGLE_UNIT ( ) );
#158 = CC_DESIGN_SECURITY_CLASSIFICATION ( #7, ( #44 ) ) ;
#159 = ORIENTED_EDGE ( 'NONE', *, *, #17, .F. ) ;
#160 = APPROVAL ( #1, 'UNSPECIFIED' ) ;
#161 = DATE_AND_TIME ( #40, #71 ) ;
#162 = DATE_AND_TIME ( #63, #121 ) ;
#163 = CARTESIAN_POINT ( 'NONE',  ( -3.000000000000000000, 0.000000000000000000, 0.000000000000000000 ) ) ;
#164 = FACE_OUTER_BOUND ( 'NONE', #101, .T. ) ;
#165 = EDGE_CURVE ( 'NONE', #113, #78, #153, .T. ) ;
#166 = VECTOR ( 'NONE', #33, 1000.000000000000000 ) ;
#167 = AXIS2_PLACEMENT_3D ( 'NONE', #16, #50, #93 ) ;
#168 = CYLINDRICAL_SURFACE ( 'NONE', #141, 15.00000000000000000 ) ;
#169 = CC_DESIGN_PERSON_AND_ORGANIZATION_ASSIGNMENT ( #133, #125, ( #151 ) ) ;
#170 = CC_DESIGN_APPROVAL ( #105, ( #7 ) ) ;
#171 = AXIS2_PLACEMENT_3D ( 'NONE', #106, #6, #94 ) ;
#172 = AXIS2_PLACEMENT_3D ( 'NONE', #143, #134, #34 ) ;
#173 = PLANE ( 'NONE',  #32 ) ;
#174 = ORIENTED_EDGE ( 'NONE', *, *, #165, .T. ) ;
#175 = PERSON_AND_ORGANIZATION ( #156, #102 ) ;
ENDSEC;
END-ISO-10303-21;
